Tabs4Ukulele

Collection of uke tabs & chords for beginners

home icon Nothing else matters

Nothing else matters Ukulele tab - Metallica


8 chords


Em chord chartA chord chartC chord chartG chord chartD chord chartB7 chord chartAm chord chartDsus2 chord chart

(Chord charts offered by Ukulele Chords.)

Tablature



Intro :


A|-----2-7-2---|-----2-7-2---|-----2-7-2---|-----2-7-2---| 
E|-0-----------|-0-----------|-0-----------|-0---------7-| 
D|-------------|-------------|-------------|-------------| 
G|---0-------0-|---0-------0-|---0-------0-|---0---------| 


A|-----2-----------2-------|-----------------------|--2-----------| 
E|-7-----------7p0---------|-7-------7---8---7h8\5-|--7-5h3\2-0---| 
C|-4-----------------------|-----------------------|--------------| 
G|---------0-----------0---|-----0-----------------|--------------| 


A|-0-----------------------|-0---------------0---2---| 
E|-------------2p0---------|-------------0---0---0---| 
C|-------------------------|-------------------------| 
G|-----5---------------5---|-----5-----------5---5---| 


A|-3---3---7-----------3---|-5---5---7---------9---2p7-| 
E|-0-----------3p0-----0---|-0-----------0h5p0---7-----| 
C|-------------------------|---------------------------| 
G|-5-----5---5-------5-5---|-5-----7---7---------------| 


A|-----2-7-2---|-----2-7-2---|-----2-7-2---|-----2-7-2---| 
E|-0-----------|-0-----------|-0-----------|-0-----------| 
C|-------------|-------------|-------------|-------------| 
G|---0-------0-|---0-------0-|---0-------0-|---0-------0-| 


A|-----------2~~---|------5------3----| 
E|-0----3----------|----2------0------| 
C|----4---4--------|--2------0--------|   x2
G|-----------------|------------------| 


A|-----------2~~---|-----5-------3-----|---3------2---6---| 
E|-0----3----------|------2--------0---|-----3------2-----|
C|----4---4--------|--2----2--0------0-|-------3----------|
G|-----------------|-------------------|-0--------------2-|


A|-----2-7-2---|-----2-7-2---|
E|-0-----------|-0-----------|
C|-------------|-------------|
G|---0-------0-|---0-------0-|


Verses (arpeggios):

A||-------------3-----0-----|-2-----3-----0-----------||
E||--0------0-----------0---|---------3-------3---3-2-||
C||-----0-----------0-----0-|-----------0-------0-----||  x2
G||-------------------------|-0-----------------------||

A|-------------3-----0-----|-2-----3-----3-----------|
E|---0-----0-----------0---|---------3-------3-------|
C|-----0-----------0-----0-|-----------0---------0---|
G|-------------------------|-0--0--------------------|

A|---------1---2-------2---|-0-----0-----|-------------0-----------|
E|-3-------3---0---------0-|-----0---0---|---------0-------0---3-2-|
C|-----0-------2-----------|---0-------0-|-----0-------------------|
G|-------------------------|-------------|-------------------------|



1st verse : 
Em                  D  -  C    -
 So close no matter how far
Em                     D    -      C   -
 Couldn't be much more from the heart 
Em                D   -    C    -
 Forever trusting who we are 
G -  B7 -         Em       Em
 And nothing else matters 



2nd verse :
Em              D   -      C    -
 Never opened myself this way 
Em                        D  -   C    -
 Life is ours, we live it our way 
Em                       D  -    C    -
 All these words I don't just say 
G -  B7 -         Em         Em
 And nothing else matters 



3rd verse :
Em                D   -      C    -
 Trust I seek and find in you 
Em                D   -      C    -
 Every day for us something new 
Em               D   -      C    -
 Open mind for a different view 
G -  B7 -         Em      CA -
 And nothing else matters



Chorus :
D                          C -  A -
 Never cared for what they do 
D                          C -  A -
 Never cared for what they know 
D      Em
 But I know 


4th verse : 
Em                  D  -  C    -
 So close no matter how far
Em                     D    -      C   -
 Couldn't be much more from the heart 
Em                D   -    C    -
 Forever trusting who we are 
G -  B7 -         Em       Em
 And nothing else matters


Solo :
  Em                             Am                                                          
A|-7-------9----|-10-------12---|-3------3------|-------3--------|
E|---7-------7--|---7--------7--|---0------0----|----0-----0-----|
C|--------------|---------------|-----0------0--|-0----------0---|
G|--------------|---------------|---------------|----------------|

  C              Dsus2            Em
A|-0--------0---|-0--------0----|-0--7--7p0-----|--------0-------|
E|----1-------1-|----3-------3--|-----0------0--|------0---------|
C|-------0------|-------2-------|------0-------0|----0-----------|
G|--------------|---------------|---------------|----------------|

  Em                             Am                                                          
A|-7-------9----|-10-------12---|-3------3------|-------3--------|
E|---7-------7--|---7--------7--|---0------0----|----0-----0-----|
C|--------------|---------------|-----0------0--|-0----------0---|
G|--------------|---------------|---------------|----------------|

  C              Dsus2           Em
A|-0--------0---|-0--------0----|-0--7--7p0-----|--------0-------|
E|----1-------1-|----3-------3--|-----0------0--|------0-----3-2-|
C|-------0------|-------2-------|------0-------0|----0-----------|
G|--------------|---------------|---------------|----------------|


5th verse :
Em                D   -      C    -
 I Never opened myself this way 
Em                        D  -   C    -
 Life is ours, we live it our way 
Em                       D  -    C    -
 All these words I don't just say 
G -  B7 -         Em         Em
 And nothing else matters 

6th verse :
Em                D   -      C    -
 Trust I seek and find in you 
Em                D   -      C    -
 Every day for us something new 
Em               D   -      C    -
 Open mind for a different view 
G -  B7 -         Em      CA -
 And nothing else matters



Chorus :
D                          C -  A -
 Never cared for what they say 
D                          C -  A -
 Never cared for games they play 
D                          C -  A -
 Never cared for what they do 
D                          C -  A -
 Never cared for what they know 
D      Em
 But I know



Solo 2 :
[Em] [D-C][Em][D-C]
[Em][D-C][G-B][Em]>let ring


7th verse : 
Em                  D  -  C    -
 So close no matter how far
Em                     D    -      C   -
 Couldn't be much more from the heart 
Em                D   -    C    -
 Forever trusting who we are 
G -  B7 -         Em*
 And nothing else matters



   Em*
A|-0-----0-----|-------0---7-|
E|-----0---0---|-----0---0---|
C|---0-------0-|---0---------|
G|-------------|-------------|


Outro:
A|----2---------2-----|--------2--2--------|-2-----------|-----2---2---|-----2---2---|
E|----------7p0-------|--------------------|---5p3--0----|-0-----0-----|-------0-----|
C|-4------------------|-4------------------|-------------|-------------|-4-----------|
G|-4-----0---------0--|----0---4--5--4h5\2-|-4-----------|---0-------0-|---0-------4-|


Uke Tab comments