Tabs4Ukulele

Collection of uke tabs & chords for beginners

home icon Tears in heaven

Tears in heaven Ukulele tab - Eric Clapton


9 chords


A chord chartE chord chartF#m chord chartD chord chartC chord chartAm chord chartG chord chartEm chord chart

(Chord charts offered by Ukulele Chords.)

Tablature



Main riff:
A|----|-0---4h5p4--7----4-|---4---4----4---|-5---5---5---5--|-4-4---4---4---4-|
E|-0h2|---0--------4-4--2-|-2---2-0--0---0-|-2-2---2-0---0--|-5-5---5---5---5-|
C|----|-------------------|----------------|----------------|-----------------|
G|----|----------2-4----2-|---2---2----2---|-2---2---2---1--|-2---2---2---2---|
 
 
 
Intro : Main riff x1
 
 
1st verse:
A         E       F#m   *1
Would you know my name
D     A             E   *
If I saw you in Heaven
A        E      F#m     *2
Would it be the same
D     A             E   *
if I saw you in Heaven
 
 
for "* ; *1 and *2", see the end of the tab
 
 
 
Chorus:
 
A|--4-----4-----4-|--4-----4-----4-|--5-----5-----5-|----------------|
E|-2-----2-----2--|-1-----1-----1--|0-----0-----0---|--2---2--4---6--|
C|----------------|----------------|----------------|6---6----6---8--|
G|--2-----2-----2-|--1-----1-----1-|--0-----0-----0-|3---3----4---6--|
      I must be strong                    and carry on     Cause I 
 
A|---2---2----2---|--5x-5x----5-----|
E|----------------|-----------------|
C|---2----2----2--|--4x-4x----4-----|
G|---2----2----2--|--2x-2x----2-----|

     know I don't belong       here in heaven..
 

Main riff x1
 
2nd Verse:
A         E       F#m   *1
Would you hold my hand
D     A             E   *
If I saw you in heaven
A         E       F#m   *2
Would you help me stand
D     A             E   *
If I saw you in heaven
 
 
 
Chorus:
I'll find my way through night and day
`Cause I know I just can't stay...here in heaven. 
 
 
 
Main riff x1
 
 
 
Bridge:
C        G/B       Am             D         G         [D][Em][D-G]
Time can bring you down, time can bend your knees 
C        G/B        Am              D      G     D          E  
Time can break your heart, have you beggin please beggin please
 
 
 
Solo: (play one verse)
 
 
 
Chorus :
Beyond the door, there's peace for sure
and I know there'll be no more...tears in heaven
 
 
 
Main riff x1
 
 
 
3rd verse:
A         E       F#m   *2
Would you know my name
D     A             E   *
If I saw you in Heaven
A        E      F#m     *1
Would it be the same
D     A             E   *
if I saw you in Heaven
 
 
 
 
Chorus:
I must be strong and carry on Cause I
know I don't belong...here in heaven
Cause I know I don't belong...here in heaven
 
 
 
Outro : Main riff x1
 
---------- 
[*]

A|---2---4----5----|
E|-0---0-----------|
C|-----------------|
G|---1---2----4----|


[1*]
A|--------7/9-7-----7-|
E|--5/7-5-------------|
C|--------------------|
G|--------------4/6---|
 
 
[2*] 
A|------------------|
E|---2-4-4h5--4-2-0-|
C|------------------|
G|------------------|


Uke Tab comments