Tabs4Ukulele

Collection of uke tabs & chords for beginners

home icon Dream on

Dream on Ukulele tab - Aerosmith


14 chords


Cm chord chartDm7b5 chord chartC chord chartDbmaj7b5 chord chartFsus4 chord chartCsus4 chord chartFm chord chartD# chord chartC# chord chartA# chord chart

(Chord charts offered by Ukulele Chords.)

Tablature



Intro :
   Fm/C        Cm           Dm7b5/C     Dbmaj7b5/C
A|------------------------|------------------------|
E|-1-----1----------------|------------------------|
C|----0-----0--3--0--3--0-|-2--0--2--0--1--0--1--0-|
G|-1-----1-----0-----0----|-1-----1-----0-----0----|

   Fm/C        Fsus4/C       F5/C
A|-------------1-----1----|--3-----3------3--------|
E|-1-----1-----1-----1----|--1-----1------1--------|
C|----0-----0-----0-----0-|-----0-----0------------|
G|-1-----1----------------|------------------------|

   Fm/C        Cm           Dm7b5/C     Dbmaj7b5/C
A|------------------------|-------------------------|
E|-1-----1----------------|-------------------------|
C|----0-----0--3--0--3--0-|--2--0--2--0--1--0--1--0-|
G|-1-----1-----0-----0----|--1-----1-----0-----0----|

   Fm/C        Fsus4/C       F5/C     Fsus4/C
A|-------------1-----1----|--3-----3----3\-1-----1--|
E|-1-----1-----1-----1----|--1-----1----1\-1--1--1--|
C|----0-----0-----0-----0-|-----0-----0----0--0-----|
G|-1-----1----------------|-------------------1-----|

    Fm/Ab      Fsus4        N.C.
A|------1---1---3\-1------|------------------------|
E|--1---1---1---4\-1------|------------------------|
C|------------------------|-1--0--1--0--1--0--1--0-|
G|--1---------------------|------------------------|


A|-7h8/10--8-10/11-10-11/13--11h13-p11-|-10h11p10\8-8h10p8\6-6h8p6\4-4\3-/15-|
E|-------------------------------------|-------------------------------------|
C|-------------------------------------|-------------------------------------|
G|-------------------------------------|-------------------------------------|



1st verse :
Fm/C        Cm          Dm7b5/C     Dbmaj7b5/C
Every time that I look in the mirror
Fm/C            Cm          Dm7b5/C      Dbmaj7b5/C
All these lines on my face getting clearer
Fm/C Cm            Dm7b5/C     Dbmaj7b5/C
The past is  gone
Fm/C          Cm  Dm7b5/C     Dbmaj7b5/C
It went by like dusk to dawn



Pre-chorus :
Fm/C                 Csus4
      Isn't that the way  
Fm/C                  C  
Everybody's got their dues in life to pay?


A|------------|------------|------------|------------|
E|------------|------------|------------|------------|
C|-1--0--1--0-|-1--0--1--0-|-1--0--1--0-|-1--0--1--0-|
G|-0-----0----|-0-----0----|-0-----0----|-0-----0----|



Chorus :
Fm        D#           C#                 D#
   I know nobody knows where it comes and where it goes
Fm             D#               C#                 D#          Fm/C
   I know it's everybody's sin, you got to lose to know how to win

[Fm/C][Cm][Dm7b5/C][Dbmaj7b5/C][Fm/C][Fsus4/C][F5/C][F5/C]>let ring



2nd verse :
Fm/C          Cm        Dm7b5/C        Dbmaj7b5/C
Half my life's in books' written pages
Fm/C            Cm           Dm7b5/C        Dbmaj7b5/C
Lived and learned from fools and from sages
Fm/C Cm             Dm7b5/C    Dbmaj7b5/C
You know it's true
Fm/C            Cm    Dm7b5/C       Dbmaj7b5/C
All these things come back to you



Chorus :
Fm            D#
Sing with me, sing for the years.
C#                        D#
Sing for the laughter and sing for the tears.
Fm                   D#
Sing with me if it's just for today,
Dm7b5/C            Dbmaj7b5/C              
Maybe tomorrow the good Lord will take you away


A|------------|------------|------------|------------|
E|------------|------------|------------|------------|
C|-1--0--1--0-|-1--0--1--0-|-1--0--1--0-|-1--0--1--0-|
G|-0-----0----|-0-----0----|-0-----0----|-0-----0----|


Solo :

  Fm/C             Fsus4/C        F5/C
A||----------------|--1----1------|--3-----3-------|-3/8x--8x-~~~-----|
E||------1-----1---|----1----1----|----1-----1---3-|----------------|
C||--0-----0-----0-|------0----0--|------0-----0---|----------------|
G||----1-----1-----|--------------|----------------|----------------|


|--3-----3-----|--3-----3-----|--3~~~--------|--------------||
|--2--1--2--1--|--2--1--2--1--|--2~~~--------|--------------||
|--------------|--------------|--------------|-------------o||
|--------------|--------------|--------------|-------------o||  x4
|--------------|--------------|--------------|--------------||
|--------------|--------------|--------------|--------------||



Chorus :
Fm            D#
Sing with me, sing for the years.
C#                        D#
Sing for the laughter and sing for the tears.
Fm                   D#
Sing with me if it's just for today,
Dm7b5/C            Dbmaj7b5/C              
Maybe tomorrow the good Lord will take you away



A|------------|------------|------------|------------|
E|------------|------------|------------|------------|
C|-1--0--1--0-|-1--0--1--0-|-1--0--1--0-|-1--0--1--0-|
G|-0-----0----|-0-----0----|-0-----0----|-0-----0----|



Bridge :
A#        C         C#
Dream on, dream on, dream on
D#                          Fmx Fmx Fmx Fmx  [Fm]
Dream yourself a dream come true
A#        C         C#
Dream on, dream on, dream on
D#                          Fmx Fmx Fmx Fmx  [Fm]
Dream yourself a dream come true
A#        C         C#        D#      
Dream on, dream on, dream on, dream on
A#        C         C#        D#
Dream on, dream on, dream on, ah~~~~~



A|------------|------------|------------|------------|
E|------------|------------|------------|------------|
C|-1--0--1--0-|-1--0--1--0-|-1--0--1--0-|-1--0--1--0-|
G|-0-----0----|-0-----0----|-0-----0----|-0-----0----|



Chorus :
Fm            D#
Sing with me, sing for the years.
C#                        D#
Sing for the laughter and sing for the tears.
Fm                   D#
Sing with me if it's just for today,
C#                 D#                                    
Maybe tomorrow the good Lord will take you away
Fm            D#
Sing with me, sing for the years.
C#                        D#
Sing for the laughter and sing for the tears.
Fm                   D#
Sing with me if it's just for today,
C#                 D#                                    
Maybe tomorrow the good Lord will take you away



A|------------|------------|------------|------------|
E|------------|------------|------------|------------|
C|-1--0--1--0-|-1--0--1--0-|-1--0--1--0-|-1--0--1--0-|
G|-0-----0----|-0-----0----|-0-----0----|-0-----0----|


Fm>let ring


Uke Tab comments